ISO-10303-21;
HEADER;
/* Generated by software containing ST-Developer
 * from STEP Tools, Inc. (www.steptools.com) 
 */

FILE_DESCRIPTION(
/* description */ (''),
/* implementation_level */ '2;1');

FILE_NAME(
/* name */ 'Medium No Port Snap 30x25.stp',
/* time_stamp */ '2025-03-12T13:30:23-04:00',
/* author */ ('jc3328'),
/* organization */ (''),
/* preprocessor_version */ 'ST-DEVELOPER v20',
/* originating_system */ 'Autodesk Inventor 2025',
/* authorisation */ '');

FILE_SCHEMA (('AUTOMOTIVE_DESIGN { 1 0 10303 214 3 1 1 }'));
ENDSEC;

DATA;
#10=MECHANICAL_DESIGN_GEOMETRIC_PRESENTATION_REPRESENTATION('',(#13),#468);
#11=SHAPE_REPRESENTATION_RELATIONSHIP('SRR','None',#475,#12);
#12=ADVANCED_BREP_SHAPE_REPRESENTATION('',(#14),#467);
#13=STYLED_ITEM('',(#484),#14);
#14=MANIFOLD_SOLID_BREP('Solid1',#271);
#15=FACE_BOUND('',#54,.T.);
#16=FACE_BOUND('',#56,.T.);
#17=PLANE('',#297);
#18=PLANE('',#301);
#19=PLANE('',#305);
#20=PLANE('',#309);
#21=PLANE('',#310);
#22=PLANE('',#311);
#23=PLANE('',#312);
#24=PLANE('',#313);
#25=PLANE('',#314);
#26=PLANE('',#315);
#27=FACE_OUTER_BOUND('',#41,.T.);
#28=FACE_OUTER_BOUND('',#42,.T.);
#29=FACE_OUTER_BOUND('',#43,.T.);
#30=FACE_OUTER_BOUND('',#44,.T.);
#31=FACE_OUTER_BOUND('',#45,.T.);
#32=FACE_OUTER_BOUND('',#46,.T.);
#33=FACE_OUTER_BOUND('',#47,.T.);
#34=FACE_OUTER_BOUND('',#48,.T.);
#35=FACE_OUTER_BOUND('',#49,.T.);
#36=FACE_OUTER_BOUND('',#50,.T.);
#37=FACE_OUTER_BOUND('',#51,.T.);
#38=FACE_OUTER_BOUND('',#52,.T.);
#39=FACE_OUTER_BOUND('',#53,.T.);
#40=FACE_OUTER_BOUND('',#55,.T.);
#41=EDGE_LOOP('',(#181,#182,#183,#184));
#42=EDGE_LOOP('',(#185,#186,#187,#188));
#43=EDGE_LOOP('',(#189,#190,#191,#192));
#44=EDGE_LOOP('',(#193,#194,#195,#196));
#45=EDGE_LOOP('',(#197,#198,#199,#200));
#46=EDGE_LOOP('',(#201,#202,#203,#204));
#47=EDGE_LOOP('',(#205,#206,#207,#208));
#48=EDGE_LOOP('',(#209,#210,#211,#212));
#49=EDGE_LOOP('',(#213,#214,#215,#216));
#50=EDGE_LOOP('',(#217,#218,#219,#220));
#51=EDGE_LOOP('',(#221,#222,#223,#224));
#52=EDGE_LOOP('',(#225,#226,#227,#228));
#53=EDGE_LOOP('',(#229,#230,#231,#232));
#54=EDGE_LOOP('',(#233,#234,#235,#236,#237,#238,#239,#240));
#55=EDGE_LOOP('',(#241,#242,#243,#244));
#56=EDGE_LOOP('',(#245,#246,#247,#248,#249,#250,#251,#252));
#57=LINE('',#396,#85);
#58=LINE('',#399,#86);
#59=LINE('',#402,#87);
#60=LINE('',#404,#88);
#61=LINE('',#405,#89);
#62=LINE('',#411,#90);
#63=LINE('',#414,#91);
#64=LINE('',#416,#92);
#65=LINE('',#417,#93);
#66=LINE('',#423,#94);
#67=LINE('',#426,#95);
#68=LINE('',#428,#96);
#69=LINE('',#429,#97);
#70=LINE('',#434,#98);
#71=LINE('',#437,#99);
#72=LINE('',#438,#100);
#73=LINE('',#442,#101);
#74=LINE('',#444,#102);
#75=LINE('',#446,#103);
#76=LINE('',#447,#104);
#77=LINE('',#450,#105);
#78=LINE('',#452,#106);
#79=LINE('',#453,#107);
#80=LINE('',#456,#108);
#81=LINE('',#458,#109);
#82=LINE('',#459,#110);
#83=LINE('',#461,#111);
#84=LINE('',#462,#112);
#85=VECTOR('',#322,10.);
#86=VECTOR('',#325,10.);
#87=VECTOR('',#328,10.);
#88=VECTOR('',#329,10.);
#89=VECTOR('',#330,10.);
#90=VECTOR('',#335,10.);
#91=VECTOR('',#338,10.);
#92=VECTOR('',#341,10.);
#93=VECTOR('',#342,10.);
#94=VECTOR('',#347,10.);
#95=VECTOR('',#350,10.);
#96=VECTOR('',#353,10.);
#97=VECTOR('',#354,10.);
#98=VECTOR('',#359,10.);
#99=VECTOR('',#364,10.);
#100=VECTOR('',#365,10.);
#101=VECTOR('',#368,10.);
#102=VECTOR('',#369,10.);
#103=VECTOR('',#370,10.);
#104=VECTOR('',#371,10.);
#105=VECTOR('',#374,10.);
#106=VECTOR('',#375,10.);
#107=VECTOR('',#376,10.);
#108=VECTOR('',#379,10.);
#109=VECTOR('',#380,10.);
#110=VECTOR('',#381,10.);
#111=VECTOR('',#384,10.);
#112=VECTOR('',#385,10.);
#113=CIRCLE('',#295,2.);
#114=CIRCLE('',#296,2.);
#115=CIRCLE('',#299,2.);
#116=CIRCLE('',#300,2.);
#117=CIRCLE('',#303,2.);
#118=CIRCLE('',#304,2.);
#119=CIRCLE('',#307,2.);
#120=CIRCLE('',#308,2.);
#121=VERTEX_POINT('',#392);
#122=VERTEX_POINT('',#393);
#123=VERTEX_POINT('',#395);
#124=VERTEX_POINT('',#397);
#125=VERTEX_POINT('',#401);
#126=VERTEX_POINT('',#403);
#127=VERTEX_POINT('',#407);
#128=VERTEX_POINT('',#408);
#129=VERTEX_POINT('',#410);
#130=VERTEX_POINT('',#412);
#131=VERTEX_POINT('',#419);
#132=VERTEX_POINT('',#420);
#133=VERTEX_POINT('',#422);
#134=VERTEX_POINT('',#424);
#135=VERTEX_POINT('',#431);
#136=VERTEX_POINT('',#433);
#137=VERTEX_POINT('',#440);
#138=VERTEX_POINT('',#441);
#139=VERTEX_POINT('',#443);
#140=VERTEX_POINT('',#445);
#141=VERTEX_POINT('',#449);
#142=VERTEX_POINT('',#451);
#143=VERTEX_POINT('',#455);
#144=VERTEX_POINT('',#457);
#145=EDGE_CURVE('',#121,#122,#113,.T.);
#146=EDGE_CURVE('',#122,#123,#57,.T.);
#147=EDGE_CURVE('',#123,#124,#114,.T.);
#148=EDGE_CURVE('',#124,#121,#58,.T.);
#149=EDGE_CURVE('',#122,#125,#59,.T.);
#150=EDGE_CURVE('',#126,#125,#60,.T.);
#151=EDGE_CURVE('',#123,#126,#61,.T.);
#152=EDGE_CURVE('',#127,#128,#115,.T.);
#153=EDGE_CURVE('',#128,#129,#62,.T.);
#154=EDGE_CURVE('',#129,#130,#116,.T.);
#155=EDGE_CURVE('',#130,#127,#63,.T.);
#156=EDGE_CURVE('',#129,#124,#64,.T.);
#157=EDGE_CURVE('',#128,#121,#65,.T.);
#158=EDGE_CURVE('',#131,#132,#117,.T.);
#159=EDGE_CURVE('',#132,#133,#66,.T.);
#160=EDGE_CURVE('',#133,#134,#118,.T.);
#161=EDGE_CURVE('',#134,#131,#67,.T.);
#162=EDGE_CURVE('',#133,#130,#68,.T.);
#163=EDGE_CURVE('',#132,#127,#69,.T.);
#164=EDGE_CURVE('',#125,#135,#119,.T.);
#165=EDGE_CURVE('',#135,#136,#70,.T.);
#166=EDGE_CURVE('',#136,#126,#120,.T.);
#167=EDGE_CURVE('',#136,#134,#71,.T.);
#168=EDGE_CURVE('',#135,#131,#72,.T.);
#169=EDGE_CURVE('',#137,#138,#73,.T.);
#170=EDGE_CURVE('',#138,#139,#74,.T.);
#171=EDGE_CURVE('',#140,#139,#75,.T.);
#172=EDGE_CURVE('',#137,#140,#76,.T.);
#173=EDGE_CURVE('',#141,#137,#77,.T.);
#174=EDGE_CURVE('',#142,#140,#78,.T.);
#175=EDGE_CURVE('',#141,#142,#79,.T.);
#176=EDGE_CURVE('',#143,#141,#80,.T.);
#177=EDGE_CURVE('',#144,#142,#81,.T.);
#178=EDGE_CURVE('',#143,#144,#82,.T.);
#179=EDGE_CURVE('',#138,#143,#83,.T.);
#180=EDGE_CURVE('',#139,#144,#84,.T.);
#181=ORIENTED_EDGE('',*,*,#145,.T.);
#182=ORIENTED_EDGE('',*,*,#146,.T.);
#183=ORIENTED_EDGE('',*,*,#147,.T.);
#184=ORIENTED_EDGE('',*,*,#148,.T.);
#185=ORIENTED_EDGE('',*,*,#146,.F.);
#186=ORIENTED_EDGE('',*,*,#149,.T.);
#187=ORIENTED_EDGE('',*,*,#150,.F.);
#188=ORIENTED_EDGE('',*,*,#151,.F.);
#189=ORIENTED_EDGE('',*,*,#152,.T.);
#190=ORIENTED_EDGE('',*,*,#153,.T.);
#191=ORIENTED_EDGE('',*,*,#154,.T.);
#192=ORIENTED_EDGE('',*,*,#155,.T.);
#193=ORIENTED_EDGE('',*,*,#148,.F.);
#194=ORIENTED_EDGE('',*,*,#156,.F.);
#195=ORIENTED_EDGE('',*,*,#153,.F.);
#196=ORIENTED_EDGE('',*,*,#157,.T.);
#197=ORIENTED_EDGE('',*,*,#158,.T.);
#198=ORIENTED_EDGE('',*,*,#159,.T.);
#199=ORIENTED_EDGE('',*,*,#160,.T.);
#200=ORIENTED_EDGE('',*,*,#161,.T.);
#201=ORIENTED_EDGE('',*,*,#155,.F.);
#202=ORIENTED_EDGE('',*,*,#162,.F.);
#203=ORIENTED_EDGE('',*,*,#159,.F.);
#204=ORIENTED_EDGE('',*,*,#163,.T.);
#205=ORIENTED_EDGE('',*,*,#164,.T.);
#206=ORIENTED_EDGE('',*,*,#165,.T.);
#207=ORIENTED_EDGE('',*,*,#166,.T.);
#208=ORIENTED_EDGE('',*,*,#150,.T.);
#209=ORIENTED_EDGE('',*,*,#161,.F.);
#210=ORIENTED_EDGE('',*,*,#167,.F.);
#211=ORIENTED_EDGE('',*,*,#165,.F.);
#212=ORIENTED_EDGE('',*,*,#168,.T.);
#213=ORIENTED_EDGE('',*,*,#169,.T.);
#214=ORIENTED_EDGE('',*,*,#170,.T.);
#215=ORIENTED_EDGE('',*,*,#171,.F.);
#216=ORIENTED_EDGE('',*,*,#172,.F.);
#217=ORIENTED_EDGE('',*,*,#173,.T.);
#218=ORIENTED_EDGE('',*,*,#172,.T.);
#219=ORIENTED_EDGE('',*,*,#174,.F.);
#220=ORIENTED_EDGE('',*,*,#175,.F.);
#221=ORIENTED_EDGE('',*,*,#176,.T.);
#222=ORIENTED_EDGE('',*,*,#175,.T.);
#223=ORIENTED_EDGE('',*,*,#177,.F.);
#224=ORIENTED_EDGE('',*,*,#178,.F.);
#225=ORIENTED_EDGE('',*,*,#179,.T.);
#226=ORIENTED_EDGE('',*,*,#178,.T.);
#227=ORIENTED_EDGE('',*,*,#180,.F.);
#228=ORIENTED_EDGE('',*,*,#170,.F.);
#229=ORIENTED_EDGE('',*,*,#180,.T.);
#230=ORIENTED_EDGE('',*,*,#177,.T.);
#231=ORIENTED_EDGE('',*,*,#174,.T.);
#232=ORIENTED_EDGE('',*,*,#171,.T.);
#233=ORIENTED_EDGE('',*,*,#167,.T.);
#234=ORIENTED_EDGE('',*,*,#160,.F.);
#235=ORIENTED_EDGE('',*,*,#162,.T.);
#236=ORIENTED_EDGE('',*,*,#154,.F.);
#237=ORIENTED_EDGE('',*,*,#156,.T.);
#238=ORIENTED_EDGE('',*,*,#147,.F.);
#239=ORIENTED_EDGE('',*,*,#151,.T.);
#240=ORIENTED_EDGE('',*,*,#166,.F.);
#241=ORIENTED_EDGE('',*,*,#179,.F.);
#242=ORIENTED_EDGE('',*,*,#169,.F.);
#243=ORIENTED_EDGE('',*,*,#173,.F.);
#244=ORIENTED_EDGE('',*,*,#176,.F.);
#245=ORIENTED_EDGE('',*,*,#164,.F.);
#246=ORIENTED_EDGE('',*,*,#149,.F.);
#247=ORIENTED_EDGE('',*,*,#145,.F.);
#248=ORIENTED_EDGE('',*,*,#157,.F.);
#249=ORIENTED_EDGE('',*,*,#152,.F.);
#250=ORIENTED_EDGE('',*,*,#163,.F.);
#251=ORIENTED_EDGE('',*,*,#158,.F.);
#252=ORIENTED_EDGE('',*,*,#168,.F.);
#253=CYLINDRICAL_SURFACE('',#294,2.);
#254=CYLINDRICAL_SURFACE('',#298,2.);
#255=CYLINDRICAL_SURFACE('',#302,2.);
#256=CYLINDRICAL_SURFACE('',#306,2.);
#257=ADVANCED_FACE('',(#27),#253,.F.);
#258=ADVANCED_FACE('',(#28),#17,.T.);
#259=ADVANCED_FACE('',(#29),#254,.F.);
#260=ADVANCED_FACE('',(#30),#18,.T.);
#261=ADVANCED_FACE('',(#31),#255,.F.);
#262=ADVANCED_FACE('',(#32),#19,.T.);
#263=ADVANCED_FACE('',(#33),#256,.F.);
#264=ADVANCED_FACE('',(#34),#20,.T.);
#265=ADVANCED_FACE('',(#35),#21,.T.);
#266=ADVANCED_FACE('',(#36),#22,.T.);
#267=ADVANCED_FACE('',(#37),#23,.T.);
#268=ADVANCED_FACE('',(#38),#24,.T.);
#269=ADVANCED_FACE('',(#39,#15),#25,.T.);
#270=ADVANCED_FACE('',(#40,#16),#26,.F.);
#271=CLOSED_SHELL('',(#257,#258,#259,#260,#261,#262,#263,#264,#265,#266,
#267,#268,#269,#270));
#272=DERIVED_UNIT_ELEMENT(#275,1.);
#273=DERIVED_UNIT_ELEMENT(#470,-3.);
#274=DIMENSIONAL_EXPONENTS(0.,1.,0.,0.,0.,0.,0.);
#275=(
CONVERSION_BASED_UNIT('gram',#277)
MASS_UNIT()
NAMED_UNIT(#274)
);
#276=(
MASS_UNIT()
NAMED_UNIT(*)
SI_UNIT(.KILO.,.GRAM.)
);
#277=MASS_MEASURE_WITH_UNIT(MASS_MEASURE(0.001),#276);
#278=DERIVED_UNIT((#272,#273));
#279=MEASURE_REPRESENTATION_ITEM('density measure',
POSITIVE_RATIO_MEASURE(1.),#278);
#280=PROPERTY_DEFINITION_REPRESENTATION(#285,#282);
#281=PROPERTY_DEFINITION_REPRESENTATION(#286,#283);
#282=REPRESENTATION('material name',(#284),#467);
#283=REPRESENTATION('density',(#279),#467);
#284=DESCRIPTIVE_REPRESENTATION_ITEM('Generic','Generic');
#285=PROPERTY_DEFINITION('material property','material name',#477);
#286=PROPERTY_DEFINITION('material property','density of part',#477);
#287=DATE_TIME_ROLE('creation_date');
#288=APPLIED_DATE_AND_TIME_ASSIGNMENT(#289,#287,(#477));
#289=DATE_AND_TIME(#290,#291);
#290=CALENDAR_DATE(2024,6,11);
#291=LOCAL_TIME(0,0,0.,#292);
#292=COORDINATED_UNIVERSAL_TIME_OFFSET(0,0,.BEHIND.);
#293=AXIS2_PLACEMENT_3D('',#390,#316,#317);
#294=AXIS2_PLACEMENT_3D('',#391,#318,#319);
#295=AXIS2_PLACEMENT_3D('',#394,#320,#321);
#296=AXIS2_PLACEMENT_3D('',#398,#323,#324);
#297=AXIS2_PLACEMENT_3D('',#400,#326,#327);
#298=AXIS2_PLACEMENT_3D('',#406,#331,#332);
#299=AXIS2_PLACEMENT_3D('',#409,#333,#334);
#300=AXIS2_PLACEMENT_3D('',#413,#336,#337);
#301=AXIS2_PLACEMENT_3D('',#415,#339,#340);
#302=AXIS2_PLACEMENT_3D('',#418,#343,#344);
#303=AXIS2_PLACEMENT_3D('',#421,#345,#346);
#304=AXIS2_PLACEMENT_3D('',#425,#348,#349);
#305=AXIS2_PLACEMENT_3D('',#427,#351,#352);
#306=AXIS2_PLACEMENT_3D('',#430,#355,#356);
#307=AXIS2_PLACEMENT_3D('',#432,#357,#358);
#308=AXIS2_PLACEMENT_3D('',#435,#360,#361);
#309=AXIS2_PLACEMENT_3D('',#436,#362,#363);
#310=AXIS2_PLACEMENT_3D('',#439,#366,#367);
#311=AXIS2_PLACEMENT_3D('',#448,#372,#373);
#312=AXIS2_PLACEMENT_3D('',#454,#377,#378);
#313=AXIS2_PLACEMENT_3D('',#460,#382,#383);
#314=AXIS2_PLACEMENT_3D('',#463,#386,#387);
#315=AXIS2_PLACEMENT_3D('',#464,#388,#389);
#316=DIRECTION('axis',(0.,0.,1.));
#317=DIRECTION('refdir',(1.,0.,0.));
#318=DIRECTION('center_axis',(0.,0.,1.));
#319=DIRECTION('ref_axis',(-0.707106781186548,-0.707106781186548,0.));
#320=DIRECTION('center_axis',(0.,0.,-1.));
#321=DIRECTION('ref_axis',(-0.707106781186548,-0.707106781186548,0.));
#322=DIRECTION('',(0.,0.,1.));
#323=DIRECTION('center_axis',(0.,0.,1.));
#324=DIRECTION('ref_axis',(-0.707106781186548,-0.707106781186548,0.));
#325=DIRECTION('',(0.,0.,-1.));
#326=DIRECTION('center_axis',(1.,0.,0.));
#327=DIRECTION('ref_axis',(0.,1.,0.));
#328=DIRECTION('',(0.,1.,0.));
#329=DIRECTION('',(0.,0.,-1.));
#330=DIRECTION('',(0.,1.,0.));
#331=DIRECTION('center_axis',(0.,0.,1.));
#332=DIRECTION('ref_axis',(0.707106781186548,-0.707106781186548,0.));
#333=DIRECTION('center_axis',(0.,0.,-1.));
#334=DIRECTION('ref_axis',(0.707106781186548,-0.707106781186548,0.));
#335=DIRECTION('',(0.,0.,1.));
#336=DIRECTION('center_axis',(0.,0.,1.));
#337=DIRECTION('ref_axis',(0.707106781186548,-0.707106781186548,0.));
#338=DIRECTION('',(0.,0.,-1.));
#339=DIRECTION('center_axis',(0.,1.,0.));
#340=DIRECTION('ref_axis',(-1.,0.,0.));
#341=DIRECTION('',(-1.,0.,0.));
#342=DIRECTION('',(-1.,0.,0.));
#343=DIRECTION('center_axis',(0.,0.,1.));
#344=DIRECTION('ref_axis',(0.707106781186548,0.707106781186548,0.));
#345=DIRECTION('center_axis',(0.,0.,-1.));
#346=DIRECTION('ref_axis',(0.707106781186548,0.707106781186548,0.));
#347=DIRECTION('',(0.,0.,1.));
#348=DIRECTION('center_axis',(0.,0.,1.));
#349=DIRECTION('ref_axis',(0.707106781186548,0.707106781186548,0.));
#350=DIRECTION('',(0.,0.,-1.));
#351=DIRECTION('center_axis',(-1.,0.,0.));
#352=DIRECTION('ref_axis',(0.,-1.,0.));
#353=DIRECTION('',(0.,-1.,0.));
#354=DIRECTION('',(0.,-1.,0.));
#355=DIRECTION('center_axis',(0.,0.,1.));
#356=DIRECTION('ref_axis',(-0.707106781186548,0.707106781186548,0.));
#357=DIRECTION('center_axis',(0.,0.,-1.));
#358=DIRECTION('ref_axis',(-0.707106781186548,0.707106781186548,0.));
#359=DIRECTION('',(0.,0.,1.));
#360=DIRECTION('center_axis',(0.,0.,1.));
#361=DIRECTION('ref_axis',(-0.707106781186548,0.707106781186548,0.));
#362=DIRECTION('center_axis',(0.,-1.,0.));
#363=DIRECTION('ref_axis',(1.,0.,0.));
#364=DIRECTION('',(1.,0.,0.));
#365=DIRECTION('',(1.,0.,0.));
#366=DIRECTION('center_axis',(-1.,0.,0.));
#367=DIRECTION('ref_axis',(0.,-1.,0.));
#368=DIRECTION('',(0.,-1.,0.));
#369=DIRECTION('',(0.,0.,1.));
#370=DIRECTION('',(0.,-1.,0.));
#371=DIRECTION('',(0.,0.,1.));
#372=DIRECTION('center_axis',(0.,1.,0.));
#373=DIRECTION('ref_axis',(-1.,0.,0.));
#374=DIRECTION('',(-1.,0.,0.));
#375=DIRECTION('',(-1.,0.,0.));
#376=DIRECTION('',(0.,0.,1.));
#377=DIRECTION('center_axis',(1.,0.,0.));
#378=DIRECTION('ref_axis',(0.,1.,0.));
#379=DIRECTION('',(0.,1.,0.));
#380=DIRECTION('',(0.,1.,0.));
#381=DIRECTION('',(0.,0.,1.));
#382=DIRECTION('center_axis',(0.,-1.,0.));
#383=DIRECTION('ref_axis',(1.,0.,0.));
#384=DIRECTION('',(1.,0.,0.));
#385=DIRECTION('',(1.,0.,0.));
#386=DIRECTION('center_axis',(0.,0.,1.));
#387=DIRECTION('ref_axis',(1.,0.,0.));
#388=DIRECTION('center_axis',(0.,0.,1.));
#389=DIRECTION('ref_axis',(1.,0.,0.));
#390=CARTESIAN_POINT('',(0.,0.,0.));
#391=CARTESIAN_POINT('Origin',(-15.,-12.5,0.));
#392=CARTESIAN_POINT('',(-15.,-14.5,0.));
#393=CARTESIAN_POINT('',(-17.,-12.5,0.));
#394=CARTESIAN_POINT('Origin',(-15.,-12.5,0.));
#395=CARTESIAN_POINT('',(-17.,-12.5,2.));
#396=CARTESIAN_POINT('',(-17.,-12.5,0.));
#397=CARTESIAN_POINT('',(-15.,-14.5,2.));
#398=CARTESIAN_POINT('Origin',(-15.,-12.5,2.));
#399=CARTESIAN_POINT('',(-15.,-14.5,0.));
#400=CARTESIAN_POINT('Origin',(-17.,-14.5,0.));
#401=CARTESIAN_POINT('',(-17.,12.5,0.));
#402=CARTESIAN_POINT('',(-17.,-14.5,0.));
#403=CARTESIAN_POINT('',(-17.,12.5,2.));
#404=CARTESIAN_POINT('',(-17.,12.5,0.));
#405=CARTESIAN_POINT('',(-17.,-14.5,2.));
#406=CARTESIAN_POINT('Origin',(15.,-12.5,0.));
#407=CARTESIAN_POINT('',(17.,-12.5,0.));
#408=CARTESIAN_POINT('',(15.,-14.5,0.));
#409=CARTESIAN_POINT('Origin',(15.,-12.5,0.));
#410=CARTESIAN_POINT('',(15.,-14.5,2.));
#411=CARTESIAN_POINT('',(15.,-14.5,0.));
#412=CARTESIAN_POINT('',(17.,-12.5,2.));
#413=CARTESIAN_POINT('Origin',(15.,-12.5,2.));
#414=CARTESIAN_POINT('',(17.,-12.5,0.));
#415=CARTESIAN_POINT('Origin',(17.,-14.5,0.));
#416=CARTESIAN_POINT('',(17.,-14.5,2.));
#417=CARTESIAN_POINT('',(17.,-14.5,0.));
#418=CARTESIAN_POINT('Origin',(15.,12.5,0.));
#419=CARTESIAN_POINT('',(15.,14.5,0.));
#420=CARTESIAN_POINT('',(17.,12.5,0.));
#421=CARTESIAN_POINT('Origin',(15.,12.5,0.));
#422=CARTESIAN_POINT('',(17.,12.5,2.));
#423=CARTESIAN_POINT('',(17.,12.5,0.));
#424=CARTESIAN_POINT('',(15.,14.5,2.));
#425=CARTESIAN_POINT('Origin',(15.,12.5,2.));
#426=CARTESIAN_POINT('',(15.,14.5,0.));
#427=CARTESIAN_POINT('Origin',(17.,14.5,0.));
#428=CARTESIAN_POINT('',(17.,14.5,2.));
#429=CARTESIAN_POINT('',(17.,14.5,0.));
#430=CARTESIAN_POINT('Origin',(-15.,12.5,0.));
#431=CARTESIAN_POINT('',(-15.,14.5,0.));
#432=CARTESIAN_POINT('Origin',(-15.,12.5,0.));
#433=CARTESIAN_POINT('',(-15.,14.5,2.));
#434=CARTESIAN_POINT('',(-15.,14.5,0.));
#435=CARTESIAN_POINT('Origin',(-15.,12.5,2.));
#436=CARTESIAN_POINT('Origin',(-17.,14.5,0.));
#437=CARTESIAN_POINT('',(-17.,14.5,2.));
#438=CARTESIAN_POINT('',(-17.,14.5,0.));
#439=CARTESIAN_POINT('Origin',(-19.,16.5,0.));
#440=CARTESIAN_POINT('',(-19.,16.5,0.));
#441=CARTESIAN_POINT('',(-19.,-16.5,0.));
#442=CARTESIAN_POINT('',(-19.,16.5,0.));
#443=CARTESIAN_POINT('',(-19.,-16.5,2.));
#444=CARTESIAN_POINT('',(-19.,-16.5,0.));
#445=CARTESIAN_POINT('',(-19.,16.5,2.));
#446=CARTESIAN_POINT('',(-19.,16.5,2.));
#447=CARTESIAN_POINT('',(-19.,16.5,0.));
#448=CARTESIAN_POINT('Origin',(19.,16.5,0.));
#449=CARTESIAN_POINT('',(19.,16.5,0.));
#450=CARTESIAN_POINT('',(19.,16.5,0.));
#451=CARTESIAN_POINT('',(19.,16.5,2.));
#452=CARTESIAN_POINT('',(19.,16.5,2.));
#453=CARTESIAN_POINT('',(19.,16.5,0.));
#454=CARTESIAN_POINT('Origin',(19.,-16.5,0.));
#455=CARTESIAN_POINT('',(19.,-16.5,0.));
#456=CARTESIAN_POINT('',(19.,-16.5,0.));
#457=CARTESIAN_POINT('',(19.,-16.5,2.));
#458=CARTESIAN_POINT('',(19.,-16.5,2.));
#459=CARTESIAN_POINT('',(19.,-16.5,0.));
#460=CARTESIAN_POINT('Origin',(-19.,-16.5,0.));
#461=CARTESIAN_POINT('',(-19.,-16.5,0.));
#462=CARTESIAN_POINT('',(-19.,-16.5,2.));
#463=CARTESIAN_POINT('Origin',(0.,0.,2.));
#464=CARTESIAN_POINT('Origin',(0.,0.,0.));
#465=UNCERTAINTY_MEASURE_WITH_UNIT(LENGTH_MEASURE(0.01),#469,
'DISTANCE_ACCURACY_VALUE',
'Maximum model space distance between geometric entities at asserted c
onnectivities');
#466=UNCERTAINTY_MEASURE_WITH_UNIT(LENGTH_MEASURE(0.01),#469,
'DISTANCE_ACCURACY_VALUE',
'Maximum model space distance between geometric entities at asserted c
onnectivities');
#467=(
GEOMETRIC_REPRESENTATION_CONTEXT(3)
GLOBAL_UNCERTAINTY_ASSIGNED_CONTEXT((#465))
GLOBAL_UNIT_ASSIGNED_CONTEXT((#469,#471,#472))
REPRESENTATION_CONTEXT('','3D')
);
#468=(
GEOMETRIC_REPRESENTATION_CONTEXT(3)
GLOBAL_UNCERTAINTY_ASSIGNED_CONTEXT((#466))
GLOBAL_UNIT_ASSIGNED_CONTEXT((#469,#471,#472))
REPRESENTATION_CONTEXT('','3D')
);
#469=(
LENGTH_UNIT()
NAMED_UNIT(*)
SI_UNIT(.MILLI.,.METRE.)
);
#470=(
LENGTH_UNIT()
NAMED_UNIT(*)
SI_UNIT(.CENTI.,.METRE.)
);
#471=(
NAMED_UNIT(*)
PLANE_ANGLE_UNIT()
SI_UNIT($,.RADIAN.)
);
#472=(
NAMED_UNIT(*)
SI_UNIT($,.STERADIAN.)
SOLID_ANGLE_UNIT()
);
#473=SHAPE_DEFINITION_REPRESENTATION(#474,#475);
#474=PRODUCT_DEFINITION_SHAPE('',$,#477);
#475=SHAPE_REPRESENTATION('',(#293),#467);
#476=PRODUCT_DEFINITION_CONTEXT('part definition',#481,'design');
#477=PRODUCT_DEFINITION('Medium No Port Snap 30x25',
'Medium No Port Snap 30x25',#478,#476);
#478=PRODUCT_DEFINITION_FORMATION('',$,#483);
#479=PRODUCT_RELATED_PRODUCT_CATEGORY('Medium No Port Snap 30x25',
'Medium No Port Snap 30x25',(#483));
#480=APPLICATION_PROTOCOL_DEFINITION('international standard',
'automotive_design',2009,#481);
#481=APPLICATION_CONTEXT(
'Core Data for Automotive Mechanical Design Process');
#482=PRODUCT_CONTEXT('part definition',#481,'mechanical');
#483=PRODUCT('Medium No Port Snap 30x25','Medium No Port Snap 30x25',$,
(#482));
#484=PRESENTATION_STYLE_ASSIGNMENT((#485));
#485=SURFACE_STYLE_USAGE(.BOTH.,#488);
#486=SURFACE_STYLE_RENDERING_WITH_PROPERTIES($,#492,(#487));
#487=SURFACE_STYLE_TRANSPARENT(0.);
#488=SURFACE_SIDE_STYLE('',(#489,#486));
#489=SURFACE_STYLE_FILL_AREA(#490);
#490=FILL_AREA_STYLE('',(#491));
#491=FILL_AREA_STYLE_COLOUR('',#492);
#492=COLOUR_RGB('',0.749019607843137,0.749019607843137,0.749019607843137);
ENDSEC;
END-ISO-10303-21;
